ISO-10303-21;
HEADER;
/* Generated by software containing ST-Developer
 * from STEP Tools, Inc. (www.steptools.com) 
 */

FILE_DESCRIPTION(
/* description */ (''),
/* implementation_level */ '2;1');

FILE_NAME(
/* name */ 
'\\\\vmware-host\\Shared Folders\\Projects\\LargeFormatPrinter\\Produc
tionPackage\\CAD\\STEPs\\StageCornerFlatPlate.stp',
/* time_stamp */ '2018-09-22T21:07:04-04:00',
/* author */ ('Justine Haupt'),
/* organization */ (''),
/* preprocessor_version */ 'ST-DEVELOPER v15.6',
/* originating_system */ 'Autodesk Inventor 2015',
/* authorisation */ '');

FILE_SCHEMA (('AUTOMOTIVE_DESIGN { 1 0 10303 214 3 1 1 }'));
ENDSEC;

DATA;
#10=MECHANICAL_DESIGN_GEOMETRIC_PRESENTATION_REPRESENTATION('',(#13),#644);
#11=SHAPE_REPRESENTATION_RELATIONSHIP('SRR','None',#653,#12);
#12=ADVANCED_BREP_SHAPE_REPRESENTATION($,(#14),#643);
#13=STYLED_ITEM('',(#662),#14);
#14=MANIFOLD_SOLID_BREP('Solid2',#390);
#15=CYLINDRICAL_SURFACE('',#408,1.621);
#16=CYLINDRICAL_SURFACE('',#410,1.621);
#17=CYLINDRICAL_SURFACE('',#412,1.621);
#18=CYLINDRICAL_SURFACE('',#414,11.5);
#19=CYLINDRICAL_SURFACE('',#416,3.3);
#20=CYLINDRICAL_SURFACE('',#418,3.3);
#21=CYLINDRICAL_SURFACE('',#420,3.3);
#22=CYLINDRICAL_SURFACE('',#422,3.3);
#23=CYLINDRICAL_SURFACE('',#424,3.3);
#24=CYLINDRICAL_SURFACE('',#426,3.3);
#25=CYLINDRICAL_SURFACE('',#428,3.3);
#26=FACE_BOUND('',#104,.T.);
#27=FACE_BOUND('',#105,.T.);
#28=FACE_BOUND('',#106,.T.);
#29=FACE_BOUND('',#107,.T.);
#30=FACE_BOUND('',#108,.T.);
#31=FACE_BOUND('',#109,.T.);
#32=FACE_BOUND('',#110,.T.);
#33=FACE_BOUND('',#111,.T.);
#34=FACE_BOUND('',#112,.T.);
#35=FACE_BOUND('',#113,.T.);
#36=FACE_BOUND('',#114,.T.);
#37=FACE_BOUND('',#118,.T.);
#38=FACE_BOUND('',#120,.T.);
#39=FACE_BOUND('',#122,.T.);
#40=FACE_BOUND('',#124,.T.);
#41=FACE_BOUND('',#126,.T.);
#42=FACE_BOUND('',#128,.T.);
#43=FACE_BOUND('',#130,.T.);
#44=FACE_BOUND('',#132,.T.);
#45=FACE_BOUND('',#134,.T.);
#46=FACE_BOUND('',#136,.T.);
#47=FACE_BOUND('',#138,.T.);
#48=FACE_BOUND('',#143,.T.);
#49=FACE_BOUND('',#144,.T.);
#50=FACE_BOUND('',#145,.T.);
#51=FACE_BOUND('',#146,.T.);
#52=FACE_BOUND('',#147,.T.);
#53=FACE_BOUND('',#148,.T.);
#54=FACE_BOUND('',#149,.T.);
#55=FACE_BOUND('',#150,.T.);
#56=FACE_BOUND('',#151,.T.);
#57=FACE_BOUND('',#152,.T.);
#58=FACE_BOUND('',#153,.T.);
#59=CIRCLE('',#395,1.621);
#60=CIRCLE('',#396,1.621);
#61=CIRCLE('',#397,1.621);
#62=CIRCLE('',#398,11.5);
#63=CIRCLE('',#399,3.3);
#64=CIRCLE('',#400,3.3);
#65=CIRCLE('',#401,3.3);
#66=CIRCLE('',#402,3.3);
#67=CIRCLE('',#403,3.3);
#68=CIRCLE('',#404,3.3);
#69=CIRCLE('',#405,3.3);
#70=CIRCLE('',#409,1.621);
#71=CIRCLE('',#411,1.621);
#72=CIRCLE('',#413,1.621);
#73=CIRCLE('',#415,11.5);
#74=CIRCLE('',#417,3.3);
#75=CIRCLE('',#419,3.3);
#76=CIRCLE('',#421,3.3);
#77=CIRCLE('',#423,3.3);
#78=CIRCLE('',#425,3.3);
#79=CIRCLE('',#427,3.3);
#80=CIRCLE('',#429,3.3);
#81=FACE_OUTER_BOUND('',#101,.T.);
#82=FACE_OUTER_BOUND('',#102,.T.);
#83=FACE_OUTER_BOUND('',#103,.T.);
#84=FACE_OUTER_BOUND('',#115,.T.);
#85=FACE_OUTER_BOUND('',#116,.T.);
#86=FACE_OUTER_BOUND('',#117,.T.);
#87=FACE_OUTER_BOUND('',#119,.T.);
#88=FACE_OUTER_BOUND('',#121,.T.);
#89=FACE_OUTER_BOUND('',#123,.T.);
#90=FACE_OUTER_BOUND('',#125,.T.);
#91=FACE_OUTER_BOUND('',#127,.T.);
#92=FACE_OUTER_BOUND('',#129,.T.);
#93=FACE_OUTER_BOUND('',#131,.T.);
#94=FACE_OUTER_BOUND('',#133,.T.);
#95=FACE_OUTER_BOUND('',#135,.T.);
#96=FACE_OUTER_BOUND('',#137,.T.);
#97=FACE_OUTER_BOUND('',#139,.T.);
#98=FACE_OUTER_BOUND('',#140,.T.);
#99=FACE_OUTER_BOUND('',#141,.T.);
#100=FACE_OUTER_BOUND('',#142,.T.);
#101=EDGE_LOOP('',(#275,#276,#277,#278));
#102=EDGE_LOOP('',(#279,#280,#281,#282));
#103=EDGE_LOOP('',(#283,#284,#285,#286,#287,#288,#289));
#104=EDGE_LOOP('',(#290));
#105=EDGE_LOOP('',(#291));
#106=EDGE_LOOP('',(#292));
#107=EDGE_LOOP('',(#293));
#108=EDGE_LOOP('',(#294));
#109=EDGE_LOOP('',(#295));
#110=EDGE_LOOP('',(#296));
#111=EDGE_LOOP('',(#297));
#112=EDGE_LOOP('',(#298));
#113=EDGE_LOOP('',(#299));
#114=EDGE_LOOP('',(#300));
#115=EDGE_LOOP('',(#301,#302,#303,#304));
#116=EDGE_LOOP('',(#305,#306,#307,#308));
#117=EDGE_LOOP('',(#309));
#118=EDGE_LOOP('',(#310));
#119=EDGE_LOOP('',(#311));
#120=EDGE_LOOP('',(#312));
#121=EDGE_LOOP('',(#313));
#122=EDGE_LOOP('',(#314));
#123=EDGE_LOOP('',(#315));
#124=EDGE_LOOP('',(#316));
#125=EDGE_LOOP('',(#317));
#126=EDGE_LOOP('',(#318));
#127=EDGE_LOOP('',(#319));
#128=EDGE_LOOP('',(#320));
#129=EDGE_LOOP('',(#321));
#130=EDGE_LOOP('',(#322));
#131=EDGE_LOOP('',(#323));
#132=EDGE_LOOP('',(#324));
#133=EDGE_LOOP('',(#325));
#134=EDGE_LOOP('',(#326));
#135=EDGE_LOOP('',(#327));
#136=EDGE_LOOP('',(#328));
#137=EDGE_LOOP('',(#329));
#138=EDGE_LOOP('',(#330));
#139=EDGE_LOOP('',(#331,#332,#333,#334));
#140=EDGE_LOOP('',(#335,#336,#337,#338));
#141=EDGE_LOOP('',(#339,#340,#341,#342));
#142=EDGE_LOOP('',(#343,#344,#345,#346,#347,#348,#349));
#143=EDGE_LOOP('',(#350));
#144=EDGE_LOOP('',(#351));
#145=EDGE_LOOP('',(#352));
#146=EDGE_LOOP('',(#353));
#147=EDGE_LOOP('',(#354));
#148=EDGE_LOOP('',(#355));
#149=EDGE_LOOP('',(#356));
#150=EDGE_LOOP('',(#357));
#151=EDGE_LOOP('',(#358));
#152=EDGE_LOOP('',(#359));
#153=EDGE_LOOP('',(#360));
#154=LINE('',#545,#175);
#155=LINE('',#547,#176);
#156=LINE('',#549,#177);
#157=LINE('',#550,#178);
#158=LINE('',#553,#179);
#159=LINE('',#555,#180);
#160=LINE('',#556,#181);
#161=LINE('',#559,#182);
#162=LINE('',#561,#183);
#163=LINE('',#563,#184);
#164=LINE('',#565,#185);
#165=LINE('',#566,#186);
#166=LINE('',#592,#187);
#167=LINE('',#593,#188);
#168=LINE('',#594,#189);
#169=LINE('',#597,#190);
#170=LINE('',#598,#191);
#171=LINE('',#634,#192);
#172=LINE('',#635,#193);
#173=LINE('',#637,#194);
#174=LINE('',#639,#195);
#175=VECTOR('',#438,59.39696961967);
#176=VECTOR('',#439,9.525);
#177=VECTOR('',#440,59.39696961967);
#178=VECTOR('',#441,9.525);
#179=VECTOR('',#444,60.);
#180=VECTOR('',#445,9.525);
#181=VECTOR('',#446,60.);
#182=VECTOR('',#449,28.);
#183=VECTOR('',#450,28.2842712474619);
#184=VECTOR('',#451,142.);
#185=VECTOR('',#452,30.);
#186=VECTOR('',#453,84.8528137423857);
#187=VECTOR('',#478,28.2842712474619);
#188=VECTOR('',#479,9.525);
#189=VECTOR('',#480,9.525);
#190=VECTOR('',#483,142.);
#191=VECTOR('',#484,9.525);
#192=VECTOR('',#531,30.);
#193=VECTOR('',#532,9.525);
#194=VECTOR('',#535,84.8528137423857);
#195=VECTOR('',#538,28.);
#196=VERTEX_POINT('',#543);
#197=VERTEX_POINT('',#544);
#198=VERTEX_POINT('',#546);
#199=VERTEX_POINT('',#548);
#200=VERTEX_POINT('',#552);
#201=VERTEX_POINT('',#554);
#202=VERTEX_POINT('',#558);
#203=VERTEX_POINT('',#560);
#204=VERTEX_POINT('',#562);
#205=VERTEX_POINT('',#564);
#206=VERTEX_POINT('',#567);
#207=VERTEX_POINT('',#569);
#208=VERTEX_POINT('',#571);
#209=VERTEX_POINT('',#573);
#210=VERTEX_POINT('',#575);
#211=VERTEX_POINT('',#577);
#212=VERTEX_POINT('',#579);
#213=VERTEX_POINT('',#581);
#214=VERTEX_POINT('',#583);
#215=VERTEX_POINT('',#585);
#216=VERTEX_POINT('',#587);
#217=VERTEX_POINT('',#590);
#218=VERTEX_POINT('',#591);
#219=VERTEX_POINT('',#596);
#220=VERTEX_POINT('',#600);
#221=VERTEX_POINT('',#603);
#222=VERTEX_POINT('',#606);
#223=VERTEX_POINT('',#609);
#224=VERTEX_POINT('',#612);
#225=VERTEX_POINT('',#615);
#226=VERTEX_POINT('',#618);
#227=VERTEX_POINT('',#621);
#228=VERTEX_POINT('',#624);
#229=VERTEX_POINT('',#627);
#230=VERTEX_POINT('',#630);
#231=VERTEX_POINT('',#633);
#232=EDGE_CURVE('',#196,#197,#154,.T.);
#233=EDGE_CURVE('',#197,#198,#155,.T.);
#234=EDGE_CURVE('',#198,#199,#156,.T.);
#235=EDGE_CURVE('',#199,#196,#157,.T.);
#236=EDGE_CURVE('',#200,#199,#158,.T.);
#237=EDGE_CURVE('',#200,#201,#159,.T.);
#238=EDGE_CURVE('',#196,#201,#160,.T.);
#239=EDGE_CURVE('',#198,#202,#161,.T.);
#240=EDGE_CURVE('',#203,#202,#162,.T.);
#241=EDGE_CURVE('',#203,#204,#163,.T.);
#242=EDGE_CURVE('',#204,#205,#164,.T.);
#243=EDGE_CURVE('',#205,#200,#165,.T.);
#244=EDGE_CURVE('',#206,#206,#59,.T.);
#245=EDGE_CURVE('',#207,#207,#60,.T.);
#246=EDGE_CURVE('',#208,#208,#61,.T.);
#247=EDGE_CURVE('',#209,#209,#62,.T.);
#248=EDGE_CURVE('',#210,#210,#63,.T.);
#249=EDGE_CURVE('',#211,#211,#64,.T.);
#250=EDGE_CURVE('',#212,#212,#65,.T.);
#251=EDGE_CURVE('',#213,#213,#66,.T.);
#252=EDGE_CURVE('',#214,#214,#67,.T.);
#253=EDGE_CURVE('',#215,#215,#68,.T.);
#254=EDGE_CURVE('',#216,#216,#69,.T.);
#255=EDGE_CURVE('',#217,#218,#166,.T.);
#256=EDGE_CURVE('',#218,#203,#167,.T.);
#257=EDGE_CURVE('',#202,#217,#168,.T.);
#258=EDGE_CURVE('',#219,#218,#169,.T.);
#259=EDGE_CURVE('',#204,#219,#170,.T.);
#260=EDGE_CURVE('',#220,#220,#70,.T.);
#261=EDGE_CURVE('',#221,#221,#71,.T.);
#262=EDGE_CURVE('',#222,#222,#72,.T.);
#263=EDGE_CURVE('',#223,#223,#73,.T.);
#264=EDGE_CURVE('',#224,#224,#74,.T.);
#265=EDGE_CURVE('',#225,#225,#75,.T.);
#266=EDGE_CURVE('',#226,#226,#76,.T.);
#267=EDGE_CURVE('',#227,#227,#77,.T.);
#268=EDGE_CURVE('',#228,#228,#78,.T.);
#269=EDGE_CURVE('',#229,#229,#79,.T.);
#270=EDGE_CURVE('',#230,#230,#80,.T.);
#271=EDGE_CURVE('',#231,#219,#171,.T.);
#272=EDGE_CURVE('',#205,#231,#172,.T.);
#273=EDGE_CURVE('',#201,#231,#173,.T.);
#274=EDGE_CURVE('',#217,#197,#174,.T.);
#275=ORIENTED_EDGE('',*,*,#232,.T.);
#276=ORIENTED_EDGE('',*,*,#233,.T.);
#277=ORIENTED_EDGE('',*,*,#234,.T.);
#278=ORIENTED_EDGE('',*,*,#235,.T.);
#279=ORIENTED_EDGE('',*,*,#235,.F.);
#280=ORIENTED_EDGE('',*,*,#236,.F.);
#281=ORIENTED_EDGE('',*,*,#237,.T.);
#282=ORIENTED_EDGE('',*,*,#238,.F.);
#283=ORIENTED_EDGE('',*,*,#234,.F.);
#284=ORIENTED_EDGE('',*,*,#239,.T.);
#285=ORIENTED_EDGE('',*,*,#240,.F.);
#286=ORIENTED_EDGE('',*,*,#241,.T.);
#287=ORIENTED_EDGE('',*,*,#242,.T.);
#288=ORIENTED_EDGE('',*,*,#243,.T.);
#289=ORIENTED_EDGE('',*,*,#236,.T.);
#290=ORIENTED_EDGE('',*,*,#244,.T.);
#291=ORIENTED_EDGE('',*,*,#245,.T.);
#292=ORIENTED_EDGE('',*,*,#246,.T.);
#293=ORIENTED_EDGE('',*,*,#247,.T.);
#294=ORIENTED_EDGE('',*,*,#248,.T.);
#295=ORIENTED_EDGE('',*,*,#249,.T.);
#296=ORIENTED_EDGE('',*,*,#250,.T.);
#297=ORIENTED_EDGE('',*,*,#251,.T.);
#298=ORIENTED_EDGE('',*,*,#252,.T.);
#299=ORIENTED_EDGE('',*,*,#253,.T.);
#300=ORIENTED_EDGE('',*,*,#254,.T.);
#301=ORIENTED_EDGE('',*,*,#255,.T.);
#302=ORIENTED_EDGE('',*,*,#256,.T.);
#303=ORIENTED_EDGE('',*,*,#240,.T.);
#304=ORIENTED_EDGE('',*,*,#257,.T.);
#305=ORIENTED_EDGE('',*,*,#256,.F.);
#306=ORIENTED_EDGE('',*,*,#258,.F.);
#307=ORIENTED_EDGE('',*,*,#259,.F.);
#308=ORIENTED_EDGE('',*,*,#241,.F.);
#309=ORIENTED_EDGE('',*,*,#244,.F.);
#310=ORIENTED_EDGE('',*,*,#260,.F.);
#311=ORIENTED_EDGE('',*,*,#245,.F.);
#312=ORIENTED_EDGE('',*,*,#261,.F.);
#313=ORIENTED_EDGE('',*,*,#246,.F.);
#314=ORIENTED_EDGE('',*,*,#262,.F.);
#315=ORIENTED_EDGE('',*,*,#247,.F.);
#316=ORIENTED_EDGE('',*,*,#263,.F.);
#317=ORIENTED_EDGE('',*,*,#248,.F.);
#318=ORIENTED_EDGE('',*,*,#264,.F.);
#319=ORIENTED_EDGE('',*,*,#249,.F.);
#320=ORIENTED_EDGE('',*,*,#265,.F.);
#321=ORIENTED_EDGE('',*,*,#250,.F.);
#322=ORIENTED_EDGE('',*,*,#266,.F.);
#323=ORIENTED_EDGE('',*,*,#251,.F.);
#324=ORIENTED_EDGE('',*,*,#267,.F.);
#325=ORIENTED_EDGE('',*,*,#252,.F.);
#326=ORIENTED_EDGE('',*,*,#268,.F.);
#327=ORIENTED_EDGE('',*,*,#253,.F.);
#328=ORIENTED_EDGE('',*,*,#269,.F.);
#329=ORIENTED_EDGE('',*,*,#254,.F.);
#330=ORIENTED_EDGE('',*,*,#270,.F.);
#331=ORIENTED_EDGE('',*,*,#242,.F.);
#332=ORIENTED_EDGE('',*,*,#259,.T.);
#333=ORIENTED_EDGE('',*,*,#271,.F.);
#334=ORIENTED_EDGE('',*,*,#272,.F.);
#335=ORIENTED_EDGE('',*,*,#243,.F.);
#336=ORIENTED_EDGE('',*,*,#272,.T.);
#337=ORIENTED_EDGE('',*,*,#273,.F.);
#338=ORIENTED_EDGE('',*,*,#237,.F.);
#339=ORIENTED_EDGE('',*,*,#233,.F.);
#340=ORIENTED_EDGE('',*,*,#274,.F.);
#341=ORIENTED_EDGE('',*,*,#257,.F.);
#342=ORIENTED_EDGE('',*,*,#239,.F.);
#343=ORIENTED_EDGE('',*,*,#232,.F.);
#344=ORIENTED_EDGE('',*,*,#238,.T.);
#345=ORIENTED_EDGE('',*,*,#273,.T.);
#346=ORIENTED_EDGE('',*,*,#271,.T.);
#347=ORIENTED_EDGE('',*,*,#258,.T.);
#348=ORIENTED_EDGE('',*,*,#255,.F.);
#349=ORIENTED_EDGE('',*,*,#274,.T.);
#350=ORIENTED_EDGE('',*,*,#260,.T.);
#351=ORIENTED_EDGE('',*,*,#261,.T.);
#352=ORIENTED_EDGE('',*,*,#262,.T.);
#353=ORIENTED_EDGE('',*,*,#263,.T.);
#354=ORIENTED_EDGE('',*,*,#264,.T.);
#355=ORIENTED_EDGE('',*,*,#265,.T.);
#356=ORIENTED_EDGE('',*,*,#266,.T.);
#357=ORIENTED_EDGE('',*,*,#267,.T.);
#358=ORIENTED_EDGE('',*,*,#268,.T.);
#359=ORIENTED_EDGE('',*,*,#269,.T.);
#360=ORIENTED_EDGE('',*,*,#270,.T.);
#361=PLANE('',#392);
#362=PLANE('',#393);
#363=PLANE('',#394);
#364=PLANE('',#406);
#365=PLANE('',#407);
#366=PLANE('',#430);
#367=PLANE('',#431);
#368=PLANE('',#432);
#369=PLANE('',#433);
#370=ADVANCED_FACE('',(#81),#361,.T.);
#371=ADVANCED_FACE('',(#82),#362,.T.);
#372=ADVANCED_FACE('',(#83,#26,#27,#28,#29,#30,#31,#32,#33,#34,#35,#36),
#363,.F.);
#373=ADVANCED_FACE('',(#84),#364,.T.);
#374=ADVANCED_FACE('',(#85),#365,.T.);
#375=ADVANCED_FACE('',(#86,#37),#15,.F.);
#376=ADVANCED_FACE('',(#87,#38),#16,.F.);
#377=ADVANCED_FACE('',(#88,#39),#17,.F.);
#378=ADVANCED_FACE('',(#89,#40),#18,.F.);
#379=ADVANCED_FACE('',(#90,#41),#19,.F.);
#380=ADVANCED_FACE('',(#91,#42),#20,.F.);
#381=ADVANCED_FACE('',(#92,#43),#21,.F.);
#382=ADVANCED_FACE('',(#93,#44),#22,.F.);
#383=ADVANCED_FACE('',(#94,#45),#23,.F.);
#384=ADVANCED_FACE('',(#95,#46),#24,.F.);
#385=ADVANCED_FACE('',(#96,#47),#25,.F.);
#386=ADVANCED_FACE('',(#97),#366,.T.);
#387=ADVANCED_FACE('',(#98),#367,.T.);
#388=ADVANCED_FACE('',(#99),#368,.T.);
#389=ADVANCED_FACE('',(#100,#48,#49,#50,#51,#52,#53,#54,#55,#56,#57,#58),
#369,.T.);
#390=CLOSED_SHELL('',(#370,#371,#372,#373,#374,#375,#376,#377,#378,#379,
#380,#381,#382,#383,#384,#385,#386,#387,#388,#389));
#391=AXIS2_PLACEMENT_3D('placement',#541,#434,#435);
#392=AXIS2_PLACEMENT_3D('',#542,#436,#437);
#393=AXIS2_PLACEMENT_3D('',#551,#442,#443);
#394=AXIS2_PLACEMENT_3D('',#557,#447,#448);
#395=AXIS2_PLACEMENT_3D('',#568,#454,#455);
#396=AXIS2_PLACEMENT_3D('',#570,#456,#457);
#397=AXIS2_PLACEMENT_3D('',#572,#458,#459);
#398=AXIS2_PLACEMENT_3D('',#574,#460,#461);
#399=AXIS2_PLACEMENT_3D('',#576,#462,#463);
#400=AXIS2_PLACEMENT_3D('',#578,#464,#465);
#401=AXIS2_PLACEMENT_3D('',#580,#466,#467);
#402=AXIS2_PLACEMENT_3D('',#582,#468,#469);
#403=AXIS2_PLACEMENT_3D('',#584,#470,#471);
#404=AXIS2_PLACEMENT_3D('',#586,#472,#473);
#405=AXIS2_PLACEMENT_3D('',#588,#474,#475);
#406=AXIS2_PLACEMENT_3D('',#589,#476,#477);
#407=AXIS2_PLACEMENT_3D('',#595,#481,#482);
#408=AXIS2_PLACEMENT_3D('',#599,#485,#486);
#409=AXIS2_PLACEMENT_3D('',#601,#487,#488);
#410=AXIS2_PLACEMENT_3D('',#602,#489,#490);
#411=AXIS2_PLACEMENT_3D('',#604,#491,#492);
#412=AXIS2_PLACEMENT_3D('',#605,#493,#494);
#413=AXIS2_PLACEMENT_3D('',#607,#495,#496);
#414=AXIS2_PLACEMENT_3D('',#608,#497,#498);
#415=AXIS2_PLACEMENT_3D('',#610,#499,#500);
#416=AXIS2_PLACEMENT_3D('',#611,#501,#502);
#417=AXIS2_PLACEMENT_3D('',#613,#503,#504);
#418=AXIS2_PLACEMENT_3D('',#614,#505,#506);
#419=AXIS2_PLACEMENT_3D('',#616,#507,#508);
#420=AXIS2_PLACEMENT_3D('',#617,#509,#510);
#421=AXIS2_PLACEMENT_3D('',#619,#511,#512);
#422=AXIS2_PLACEMENT_3D('',#620,#513,#514);
#423=AXIS2_PLACEMENT_3D('',#622,#515,#516);
#424=AXIS2_PLACEMENT_3D('',#623,#517,#518);
#425=AXIS2_PLACEMENT_3D('',#625,#519,#520);
#426=AXIS2_PLACEMENT_3D('',#626,#521,#522);
#427=AXIS2_PLACEMENT_3D('',#628,#523,#524);
#428=AXIS2_PLACEMENT_3D('',#629,#525,#526);
#429=AXIS2_PLACEMENT_3D('',#631,#527,#528);
#430=AXIS2_PLACEMENT_3D('',#632,#529,#530);
#431=AXIS2_PLACEMENT_3D('',#636,#533,#534);
#432=AXIS2_PLACEMENT_3D('',#638,#536,#537);
#433=AXIS2_PLACEMENT_3D('',#640,#539,#540);
#434=DIRECTION('axis',(0.,0.,1.));
#435=DIRECTION('refdir',(1.,0.,0.));
#436=DIRECTION('center_axis',(-0.707106781186548,0.,0.707106781186548));
#437=DIRECTION('ref_axis',(0.707106781186548,0.,0.707106781186548));
#438=DIRECTION('',(-0.707106781186547,0.,-0.707106781186547));
#439=DIRECTION('',(0.,-1.,0.));
#440=DIRECTION('',(0.707106781186547,0.,0.707106781186547));
#441=DIRECTION('',(0.,1.,0.));
#442=DIRECTION('center_axis',(0.,0.,1.));
#443=DIRECTION('ref_axis',(1.,0.,0.));
#444=DIRECTION('',(-1.,0.,0.));
#445=DIRECTION('',(0.,1.,0.));
#446=DIRECTION('',(1.,0.,0.));
#447=DIRECTION('center_axis',(0.,1.,0.));
#448=DIRECTION('ref_axis',(0.,0.,1.));
#449=DIRECTION('',(-9.86864910777917E-17,0.,-1.));
#450=DIRECTION('',(-0.707106781186548,0.,0.707106781186548));
#451=DIRECTION('',(1.,0.,-1.22464679914735E-16));
#452=DIRECTION('',(0.,0.,1.));
#453=DIRECTION('',(-0.707106781186547,0.,0.707106781186548));
#454=DIRECTION('center_axis',(0.,1.,0.));
#455=DIRECTION('ref_axis',(-0.5,0.,-0.866025403784438));
#456=DIRECTION('center_axis',(0.,1.,0.));
#457=DIRECTION('ref_axis',(-0.5,0.,0.866025403784439));
#458=DIRECTION('center_axis',(0.,1.,0.));
#459=DIRECTION('ref_axis',(1.,0.,0.));
#460=DIRECTION('center_axis',(0.,1.,0.));
#461=DIRECTION('ref_axis',(-1.,0.,0.));
#462=DIRECTION('center_axis',(0.,1.,0.));
#463=DIRECTION('ref_axis',(1.,0.,0.));
#464=DIRECTION('center_axis',(0.,1.,0.));
#465=DIRECTION('ref_axis',(1.,0.,0.));
#466=DIRECTION('center_axis',(0.,1.,0.));
#467=DIRECTION('ref_axis',(1.,0.,0.));
#468=DIRECTION('center_axis',(0.,1.,0.));
#469=DIRECTION('ref_axis',(1.,0.,0.));
#470=DIRECTION('center_axis',(0.,1.,0.));
#471=DIRECTION('ref_axis',(1.,0.,0.));
#472=DIRECTION('center_axis',(0.,1.,0.));
#473=DIRECTION('ref_axis',(1.,0.,0.));
#474=DIRECTION('center_axis',(0.,1.,0.));
#475=DIRECTION('ref_axis',(1.,0.,0.));
#476=DIRECTION('center_axis',(-0.707106781186548,0.,-0.707106781186548));
#477=DIRECTION('ref_axis',(-0.707106781186548,0.,0.707106781186547));
#478=DIRECTION('',(0.707106781186548,0.,-0.707106781186548));
#479=DIRECTION('',(0.,-1.,0.));
#480=DIRECTION('',(0.,1.,0.));
#481=DIRECTION('center_axis',(-1.22464679914735E-16,0.,-1.));
#482=DIRECTION('ref_axis',(-1.,0.,1.22464679914735E-16));
#483=DIRECTION('',(-1.,0.,1.22464679914735E-16));
#484=DIRECTION('',(0.,1.,0.));
#485=DIRECTION('center_axis',(0.,1.,0.));
#486=DIRECTION('ref_axis',(-0.5,0.,-0.866025403784438));
#487=DIRECTION('center_axis',(0.,-1.,0.));
#488=DIRECTION('ref_axis',(-0.5,0.,-0.866025403784438));
#489=DIRECTION('center_axis',(0.,1.,0.));
#490=DIRECTION('ref_axis',(-0.5,0.,0.866025403784439));
#491=DIRECTION('center_axis',(0.,-1.,0.));
#492=DIRECTION('ref_axis',(-0.5,0.,0.866025403784439));
#493=DIRECTION('center_axis',(0.,1.,0.));
#494=DIRECTION('ref_axis',(1.,0.,0.));
#495=DIRECTION('center_axis',(0.,-1.,0.));
#496=DIRECTION('ref_axis',(1.,0.,0.));
#497=DIRECTION('center_axis',(0.,-1.,0.));
#498=DIRECTION('ref_axis',(-1.,0.,0.));
#499=DIRECTION('center_axis',(0.,-1.,0.));
#500=DIRECTION('ref_axis',(-1.,0.,0.));
#501=DIRECTION('center_axis',(0.,1.,0.));
#502=DIRECTION('ref_axis',(1.,0.,0.));
#503=DIRECTION('center_axis',(0.,-1.,0.));
#504=DIRECTION('ref_axis',(1.,0.,0.));
#505=DIRECTION('center_axis',(0.,1.,0.));
#506=DIRECTION('ref_axis',(1.,0.,0.));
#507=DIRECTION('center_axis',(0.,-1.,0.));
#508=DIRECTION('ref_axis',(1.,0.,0.));
#509=DIRECTION('center_axis',(0.,1.,0.));
#510=DIRECTION('ref_axis',(1.,0.,0.));
#511=DIRECTION('center_axis',(0.,-1.,0.));
#512=DIRECTION('ref_axis',(1.,0.,0.));
#513=DIRECTION('center_axis',(0.,1.,0.));
#514=DIRECTION('ref_axis',(1.,0.,0.));
#515=DIRECTION('center_axis',(0.,-1.,0.));
#516=DIRECTION('ref_axis',(1.,0.,0.));
#517=DIRECTION('center_axis',(0.,1.,0.));
#518=DIRECTION('ref_axis',(1.,0.,0.));
#519=DIRECTION('center_axis',(0.,-1.,0.));
#520=DIRECTION('ref_axis',(1.,0.,0.));
#521=DIRECTION('center_axis',(0.,1.,0.));
#522=DIRECTION('ref_axis',(1.,0.,0.));
#523=DIRECTION('center_axis',(0.,-1.,0.));
#524=DIRECTION('ref_axis',(1.,0.,0.));
#525=DIRECTION('center_axis',(0.,1.,0.));
#526=DIRECTION('ref_axis',(1.,0.,0.));
#527=DIRECTION('center_axis',(0.,-1.,0.));
#528=DIRECTION('ref_axis',(1.,0.,0.));
#529=DIRECTION('center_axis',(1.,0.,0.));
#530=DIRECTION('ref_axis',(0.,0.,-1.));
#531=DIRECTION('',(0.,0.,-1.));
#532=DIRECTION('',(0.,1.,0.));
#533=DIRECTION('center_axis',(0.707106781186548,0.,0.707106781186547));
#534=DIRECTION('ref_axis',(0.707106781186547,0.,-0.707106781186548));
#535=DIRECTION('',(0.707106781186547,0.,-0.707106781186548));
#536=DIRECTION('center_axis',(-1.,0.,9.86864910777917E-17));
#537=DIRECTION('ref_axis',(0.,0.,1.));
#538=DIRECTION('',(9.86864910777917E-17,0.,1.));
#539=DIRECTION('center_axis',(0.,1.,0.));
#540=DIRECTION('ref_axis',(0.,0.,1.));
#541=CARTESIAN_POINT('',(0.,0.,0.));
#542=CARTESIAN_POINT('Origin',(-51.,0.,69.));
#543=CARTESIAN_POINT('',(-30.,9.525,90.));
#544=CARTESIAN_POINT('',(-72.,9.525,48.));
#545=CARTESIAN_POINT('',(-45.1564886247303,9.525,74.8435113752697));
#546=CARTESIAN_POINT('',(-72.,0.,48.));
#547=CARTESIAN_POINT('',(-72.,0.,48.));
#548=CARTESIAN_POINT('',(-30.,0.,90.));
#549=CARTESIAN_POINT('',(-45.1564886247303,0.,74.8435113752697));
#550=CARTESIAN_POINT('',(-30.,0.,90.));
#551=CARTESIAN_POINT('Origin',(-72.,0.,90.));
#552=CARTESIAN_POINT('',(30.,0.,90.));
#553=CARTESIAN_POINT('',(30.,0.,90.));
#554=CARTESIAN_POINT('',(30.,9.525,90.));
#555=CARTESIAN_POINT('',(30.,0.,90.));
#556=CARTESIAN_POINT('',(2.75545529808154E-14,9.525,90.));
#557=CARTESIAN_POINT('Origin',(1.33766676057051,0.,40.0363787405083));
#558=CARTESIAN_POINT('',(-72.,0.,20.));
#559=CARTESIAN_POINT('',(-72.,0.,90.));
#560=CARTESIAN_POINT('',(-52.,0.,6.36816335556623E-15));
#561=CARTESIAN_POINT('',(-53.6746779949844,0.,1.67467799498445));
#562=CARTESIAN_POINT('',(90.,0.,-1.10218211923262E-14));
#563=CARTESIAN_POINT('',(0.,0.,0.));
#564=CARTESIAN_POINT('',(90.,0.,30.));
#565=CARTESIAN_POINT('',(90.,0.,-1.10218211923262E-14));
#566=CARTESIAN_POINT('',(90.,0.,30.));
#567=CARTESIAN_POINT('',(-38.1232551178619,0.,28.8600271795346));
#568=CARTESIAN_POINT('Origin',(-38.9337551178619,0.,27.4562));
#569=CARTESIAN_POINT('',(-64.2557448821381,0.,26.0523728204654));
#570=CARTESIAN_POINT('Origin',(-65.0662448821381,0.,27.4562));
#571=CARTESIAN_POINT('',(-53.621,0.,50.0876));
#572=CARTESIAN_POINT('Origin',(-52.,0.,50.0876));
#573=CARTESIAN_POINT('',(-40.5,0.,35.));
#574=CARTESIAN_POINT('Origin',(-52.,0.,35.));
#575=CARTESIAN_POINT('',(-18.3,0.,75.));
#576=CARTESIAN_POINT('Origin',(-15.,0.,75.));
#577=CARTESIAN_POINT('',(41.7,0.,15.));
#578=CARTESIAN_POINT('Origin',(45.,0.,15.));
#579=CARTESIAN_POINT('',(11.7,0.,45.));
#580=CARTESIAN_POINT('Origin',(15.,0.,45.));
#581=CARTESIAN_POINT('',(11.7,0.,15.));
#582=CARTESIAN_POINT('Origin',(15.,0.,15.));
#583=CARTESIAN_POINT('',(11.7,0.,75.));
#584=CARTESIAN_POINT('Origin',(15.,0.,75.));
#585=CARTESIAN_POINT('',(71.7,0.,15.));
#586=CARTESIAN_POINT('Origin',(75.,0.,15.));
#587=CARTESIAN_POINT('',(-18.3,0.,45.));
#588=CARTESIAN_POINT('Origin',(-15.,0.,45.));
#589=CARTESIAN_POINT('Origin',(-62.,0.,10.));
#590=CARTESIAN_POINT('',(-72.,9.525,20.));
#591=CARTESIAN_POINT('',(-52.,9.525,6.36816335556623E-15));
#592=CARTESIAN_POINT('',(-53.6746779949844,9.525,1.67467799498445));
#593=CARTESIAN_POINT('',(-52.,0.,8.88178419700125E-15));
#594=CARTESIAN_POINT('',(-72.,0.,20.));
#595=CARTESIAN_POINT('Origin',(90.,0.,-1.10218211923262E-14));
#596=CARTESIAN_POINT('',(90.,9.525,-1.10218211923262E-14));
#597=CARTESIAN_POINT('',(0.,9.525,0.));
#598=CARTESIAN_POINT('',(90.,0.,-1.10218211923262E-14));
#599=CARTESIAN_POINT('Origin',(-38.9337551178619,-176.040960307919,27.4562));
#600=CARTESIAN_POINT('',(-39.7442551178619,9.525,26.0523728204654));
#601=CARTESIAN_POINT('Origin',(-38.9337551178619,9.52500000000001,27.4562));
#602=CARTESIAN_POINT('Origin',(-65.0662448821381,-176.040960307919,27.4562));
#603=CARTESIAN_POINT('',(-65.8767448821381,9.525,28.8600271795346));
#604=CARTESIAN_POINT('Origin',(-65.0662448821381,9.52500000000001,27.4562));
#605=CARTESIAN_POINT('Origin',(-52.,-176.040960307919,50.0876));
#606=CARTESIAN_POINT('',(-50.379,9.525,50.0876));
#607=CARTESIAN_POINT('Origin',(-52.,9.52500000000001,50.0876));
#608=CARTESIAN_POINT('Origin',(-52.,9.525,35.));
#609=CARTESIAN_POINT('',(-40.5,9.525,35.));
#610=CARTESIAN_POINT('Origin',(-52.,9.525,35.));
#611=CARTESIAN_POINT('Origin',(-15.,-176.040960307919,75.));
#612=CARTESIAN_POINT('',(-11.7,9.525,75.));
#613=CARTESIAN_POINT('Origin',(-15.,9.52500000000001,75.));
#614=CARTESIAN_POINT('Origin',(45.,-176.040960307919,15.));
#615=CARTESIAN_POINT('',(48.3,9.525,15.));
#616=CARTESIAN_POINT('Origin',(45.,9.52500000000001,15.));
#617=CARTESIAN_POINT('Origin',(15.,-176.040960307919,45.));
#618=CARTESIAN_POINT('',(18.3,9.525,45.));
#619=CARTESIAN_POINT('Origin',(15.,9.52500000000001,45.));
#620=CARTESIAN_POINT('Origin',(15.,-176.040960307919,15.));
#621=CARTESIAN_POINT('',(18.3,9.525,15.));
#622=CARTESIAN_POINT('Origin',(15.,9.52500000000001,15.));
#623=CARTESIAN_POINT('Origin',(15.,-176.040960307919,75.));
#624=CARTESIAN_POINT('',(18.3,9.525,75.));
#625=CARTESIAN_POINT('Origin',(15.,9.52500000000001,75.));
#626=CARTESIAN_POINT('Origin',(75.,-176.040960307919,15.));
#627=CARTESIAN_POINT('',(78.3,9.525,15.));
#628=CARTESIAN_POINT('Origin',(75.,9.52500000000001,15.));
#629=CARTESIAN_POINT('Origin',(-15.,-176.040960307919,45.));
#630=CARTESIAN_POINT('',(-11.7,9.525,45.));
#631=CARTESIAN_POINT('Origin',(-15.,9.52500000000001,45.));
#632=CARTESIAN_POINT('Origin',(90.,0.,30.));
#633=CARTESIAN_POINT('',(90.,9.525,30.));
#634=CARTESIAN_POINT('',(90.,9.525,-1.10218211923262E-14));
#635=CARTESIAN_POINT('',(90.,0.,30.));
#636=CARTESIAN_POINT('Origin',(30.,0.,90.));
#637=CARTESIAN_POINT('',(90.,9.525,30.));
#638=CARTESIAN_POINT('Origin',(-72.,0.,1.77635683940025E-14));
#639=CARTESIAN_POINT('',(-72.,9.525,90.));
#640=CARTESIAN_POINT('Origin',(1.33766676057051,9.525,40.0363787405083));
#641=UNCERTAINTY_MEASURE_WITH_UNIT(LENGTH_MEASURE(0.01),#645,
'DISTANCE_ACCURACY_VALUE',
'Maximum model space distance between geometric entities at asserted c
onnectivities');
#642=UNCERTAINTY_MEASURE_WITH_UNIT(LENGTH_MEASURE(1.E-6),#645,
'DISTANCE_ACCURACY_VALUE',
'Maximum model space distance between geometric entities at asserted c
onnectivities');
#643=(
GEOMETRIC_REPRESENTATION_CONTEXT(3)
GLOBAL_UNCERTAINTY_ASSIGNED_CONTEXT((#641))
GLOBAL_UNIT_ASSIGNED_CONTEXT((#645,#648,#646))
REPRESENTATION_CONTEXT('','3D')
);
#644=(
GEOMETRIC_REPRESENTATION_CONTEXT(3)
GLOBAL_UNCERTAINTY_ASSIGNED_CONTEXT((#642))
GLOBAL_UNIT_ASSIGNED_CONTEXT((#645,#648,#646))
REPRESENTATION_CONTEXT('','3D')
);
#645=(
LENGTH_UNIT()
NAMED_UNIT(*)
SI_UNIT(.MILLI.,.METRE.)
);
#646=(
NAMED_UNIT(*)
SI_UNIT($,.STERADIAN.)
SOLID_ANGLE_UNIT()
);
#647=DIMENSIONAL_EXPONENTS(0.,0.,0.,0.,0.,0.,0.);
#648=(
CONVERSION_BASED_UNIT('degree',#650)
NAMED_UNIT(#647)
PLANE_ANGLE_UNIT()
);
#649=(
NAMED_UNIT(*)
PLANE_ANGLE_UNIT()
SI_UNIT($,.RADIAN.)
);
#650=PLANE_ANGLE_MEASURE_WITH_UNIT(PLANE_ANGLE_MEASURE(0.01745329252),#649);
#651=SHAPE_DEFINITION_REPRESENTATION(#652,#653);
#652=PRODUCT_DEFINITION_SHAPE('',$,#655);
#653=SHAPE_REPRESENTATION('',(#391),#643);
#654=PRODUCT_DEFINITION_CONTEXT('part definition',#659,'design');
#655=PRODUCT_DEFINITION('StageCornerFlatPlate','StageCornerFlatPlate',#656,
#654);
#656=PRODUCT_DEFINITION_FORMATION('',$,#661);
#657=PRODUCT_RELATED_PRODUCT_CATEGORY('StageCornerFlatPlate',
'StageCornerFlatPlate',(#661));
#658=APPLICATION_PROTOCOL_DEFINITION('international standard',
'automotive_design',2009,#659);
#659=APPLICATION_CONTEXT(
'Core Data for Automotive Mechanical Design Process');
#660=PRODUCT_CONTEXT('part definition',#659,'mechanical');
#661=PRODUCT('StageCornerFlatPlate','StageCornerFlatPlate',$,(#660));
#662=PRESENTATION_STYLE_ASSIGNMENT((#663));
#663=SURFACE_STYLE_USAGE(.BOTH.,#664);
#664=SURFACE_SIDE_STYLE($,(#665));
#665=SURFACE_STYLE_FILL_AREA(#666);
#666=FILL_AREA_STYLE($,(#667));
#667=FILL_AREA_STYLE_COLOUR($,#668);
#668=COLOUR_RGB('',0.956862745098039,0.956862745098039,0.956862745098039);
ENDSEC;
END-ISO-10303-21;
