ISO-10303-21;
HEADER;
/* Generated by software containing ST-Developer
 * from STEP Tools, Inc. (www.steptools.com) 
 */

FILE_DESCRIPTION(
/* description */ (''),
/* implementation_level */ '2;1');

FILE_NAME(
/* name */ 
'\\\\vmware-host\\Shared Folders\\Projects\\LargeFormatPrinter\\Produc
tionPackage\\CAD\\STEPS-MetalFab\\StageCenterBallPlate.stp',
/* time_stamp */ '2018-09-23T14:41:15-04:00',
/* author */ ('Justine Haupt'),
/* organization */ (''),
/* preprocessor_version */ 'ST-DEVELOPER v15.6',
/* originating_system */ 'Autodesk Inventor 2015',
/* authorisation */ '');

FILE_SCHEMA (('AUTOMOTIVE_DESIGN { 1 0 10303 214 3 1 1 }'));
ENDSEC;

DATA;
#10=MECHANICAL_DESIGN_GEOMETRIC_PRESENTATION_REPRESENTATION('',(#13),#379);
#11=SHAPE_REPRESENTATION_RELATIONSHIP('SRR','None',#388,#12);
#12=ADVANCED_BREP_SHAPE_REPRESENTATION($,(#14),#378);
#13=STYLED_ITEM('',(#397),#14);
#14=MANIFOLD_SOLID_BREP('Solid2',#231);
#15=CYLINDRICAL_SURFACE('',#242,6.355);
#16=CYLINDRICAL_SURFACE('',#244,2.6795);
#17=CYLINDRICAL_SURFACE('',#246,3.3);
#18=CYLINDRICAL_SURFACE('',#248,3.3);
#19=CONICAL_SURFACE('',#239,3.1775,59.);
#20=FACE_BOUND('',#54,.T.);
#21=FACE_BOUND('',#55,.T.);
#22=FACE_BOUND('',#59,.T.);
#23=FACE_BOUND('',#61,.T.);
#24=FACE_BOUND('',#63,.T.);
#25=FACE_BOUND('',#65,.T.);
#26=FACE_BOUND('',#67,.T.);
#27=FACE_BOUND('',#71,.T.);
#28=FACE_BOUND('',#72,.T.);
#29=FACE_BOUND('',#73,.T.);
#30=FACE_BOUND('',#75,.T.);
#31=CIRCLE('',#235,3.3);
#32=CIRCLE('',#236,3.3);
#33=CIRCLE('',#240,2.6795);
#34=CIRCLE('',#241,6.355);
#35=CIRCLE('',#243,6.355);
#36=CIRCLE('',#245,2.6795);
#37=CIRCLE('',#247,3.3);
#38=CIRCLE('',#249,3.3);
#39=FACE_OUTER_BOUND('',#52,.T.);
#40=FACE_OUTER_BOUND('',#53,.T.);
#41=FACE_OUTER_BOUND('',#56,.T.);
#42=FACE_OUTER_BOUND('',#57,.T.);
#43=FACE_OUTER_BOUND('',#58,.T.);
#44=FACE_OUTER_BOUND('',#60,.T.);
#45=FACE_OUTER_BOUND('',#62,.T.);
#46=FACE_OUTER_BOUND('',#64,.T.);
#47=FACE_OUTER_BOUND('',#66,.T.);
#48=FACE_OUTER_BOUND('',#68,.T.);
#49=FACE_OUTER_BOUND('',#69,.T.);
#50=FACE_OUTER_BOUND('',#70,.T.);
#51=FACE_OUTER_BOUND('',#74,.T.);
#52=EDGE_LOOP('',(#158,#159,#160,#161));
#53=EDGE_LOOP('',(#162,#163,#164,#165));
#54=EDGE_LOOP('',(#166));
#55=EDGE_LOOP('',(#167));
#56=EDGE_LOOP('',(#168,#169,#170,#171,#172,#173));
#57=EDGE_LOOP('',(#174,#175,#176,#177));
#58=EDGE_LOOP('',(#178));
#59=EDGE_LOOP('',(#179));
#60=EDGE_LOOP('',(#180));
#61=EDGE_LOOP('',(#181));
#62=EDGE_LOOP('',(#182));
#63=EDGE_LOOP('',(#183));
#64=EDGE_LOOP('',(#184));
#65=EDGE_LOOP('',(#185));
#66=EDGE_LOOP('',(#186));
#67=EDGE_LOOP('',(#187));
#68=EDGE_LOOP('',(#188,#189,#190,#191));
#69=EDGE_LOOP('',(#192,#193,#194,#195,#196,#197));
#70=EDGE_LOOP('',(#198,#199,#200,#201));
#71=EDGE_LOOP('',(#202));
#72=EDGE_LOOP('',(#203));
#73=EDGE_LOOP('',(#204));
#74=EDGE_LOOP('',(#205,#206,#207,#208));
#75=EDGE_LOOP('',(#209));
#76=LINE('',#320,#94);
#77=LINE('',#322,#95);
#78=LINE('',#324,#96);
#79=LINE('',#325,#97);
#80=LINE('',#329,#98);
#81=LINE('',#330,#99);
#82=LINE('',#331,#100);
#83=LINE('',#338,#101);
#84=LINE('',#340,#102);
#85=LINE('',#342,#103);
#86=LINE('',#343,#104);
#87=LINE('',#346,#105);
#88=LINE('',#347,#106);
#89=LINE('',#367,#107);
#90=LINE('',#369,#108);
#91=LINE('',#370,#109);
#92=LINE('',#372,#110);
#93=LINE('',#373,#111);
#94=VECTOR('',#258,50.);
#95=VECTOR('',#259,6.35);
#96=VECTOR('',#260,50.);
#97=VECTOR('',#261,6.35);
#98=VECTOR('',#264,50.);
#99=VECTOR('',#265,30.2);
#100=VECTOR('',#266,30.2);
#101=VECTOR('',#273,9.525);
#102=VECTOR('',#274,55.);
#103=VECTOR('',#275,15.875);
#104=VECTOR('',#276,24.8);
#105=VECTOR('',#279,9.525);
#106=VECTOR('',#280,50.);
#107=VECTOR('',#305,50.);
#108=VECTOR('',#306,50.);
#109=VECTOR('',#307,15.875);
#110=VECTOR('',#310,24.8);
#111=VECTOR('',#311,55.);
#112=VERTEX_POINT('',#318);
#113=VERTEX_POINT('',#319);
#114=VERTEX_POINT('',#321);
#115=VERTEX_POINT('',#323);
#116=VERTEX_POINT('',#327);
#117=VERTEX_POINT('',#328);
#118=VERTEX_POINT('',#332);
#119=VERTEX_POINT('',#334);
#120=VERTEX_POINT('',#337);
#121=VERTEX_POINT('',#339);
#122=VERTEX_POINT('',#341);
#123=VERTEX_POINT('',#345);
#124=VERTEX_POINT('',#349);
#125=VERTEX_POINT('',#351);
#126=VERTEX_POINT('',#354);
#127=VERTEX_POINT('',#357);
#128=VERTEX_POINT('',#360);
#129=VERTEX_POINT('',#363);
#130=VERTEX_POINT('',#366);
#131=VERTEX_POINT('',#368);
#132=EDGE_CURVE('',#112,#113,#76,.T.);
#133=EDGE_CURVE('',#114,#112,#77,.T.);
#134=EDGE_CURVE('',#114,#115,#78,.T.);
#135=EDGE_CURVE('',#113,#115,#79,.T.);
#136=EDGE_CURVE('',#116,#117,#80,.T.);
#137=EDGE_CURVE('',#115,#116,#81,.T.);
#138=EDGE_CURVE('',#117,#114,#82,.T.);
#139=EDGE_CURVE('',#118,#118,#31,.T.);
#140=EDGE_CURVE('',#119,#119,#32,.T.);
#141=EDGE_CURVE('',#116,#120,#83,.T.);
#142=EDGE_CURVE('',#121,#120,#84,.T.);
#143=EDGE_CURVE('',#122,#121,#85,.T.);
#144=EDGE_CURVE('',#122,#113,#86,.T.);
#145=EDGE_CURVE('',#117,#123,#87,.T.);
#146=EDGE_CURVE('',#120,#123,#88,.T.);
#147=EDGE_CURVE('',#124,#124,#33,.T.);
#148=EDGE_CURVE('',#125,#125,#34,.T.);
#149=EDGE_CURVE('',#126,#126,#35,.T.);
#150=EDGE_CURVE('',#127,#127,#36,.T.);
#151=EDGE_CURVE('',#128,#128,#37,.T.);
#152=EDGE_CURVE('',#129,#129,#38,.T.);
#153=EDGE_CURVE('',#130,#122,#89,.T.);
#154=EDGE_CURVE('',#131,#121,#90,.T.);
#155=EDGE_CURVE('',#130,#131,#91,.T.);
#156=EDGE_CURVE('',#112,#130,#92,.T.);
#157=EDGE_CURVE('',#123,#131,#93,.T.);
#158=ORIENTED_EDGE('',*,*,#132,.F.);
#159=ORIENTED_EDGE('',*,*,#133,.F.);
#160=ORIENTED_EDGE('',*,*,#134,.T.);
#161=ORIENTED_EDGE('',*,*,#135,.F.);
#162=ORIENTED_EDGE('',*,*,#136,.F.);
#163=ORIENTED_EDGE('',*,*,#137,.F.);
#164=ORIENTED_EDGE('',*,*,#134,.F.);
#165=ORIENTED_EDGE('',*,*,#138,.F.);
#166=ORIENTED_EDGE('',*,*,#139,.F.);
#167=ORIENTED_EDGE('',*,*,#140,.F.);
#168=ORIENTED_EDGE('',*,*,#135,.T.);
#169=ORIENTED_EDGE('',*,*,#137,.T.);
#170=ORIENTED_EDGE('',*,*,#141,.T.);
#171=ORIENTED_EDGE('',*,*,#142,.F.);
#172=ORIENTED_EDGE('',*,*,#143,.F.);
#173=ORIENTED_EDGE('',*,*,#144,.T.);
#174=ORIENTED_EDGE('',*,*,#136,.T.);
#175=ORIENTED_EDGE('',*,*,#145,.T.);
#176=ORIENTED_EDGE('',*,*,#146,.F.);
#177=ORIENTED_EDGE('',*,*,#141,.F.);
#178=ORIENTED_EDGE('',*,*,#147,.F.);
#179=ORIENTED_EDGE('',*,*,#148,.T.);
#180=ORIENTED_EDGE('',*,*,#149,.F.);
#181=ORIENTED_EDGE('',*,*,#148,.F.);
#182=ORIENTED_EDGE('',*,*,#147,.T.);
#183=ORIENTED_EDGE('',*,*,#150,.F.);
#184=ORIENTED_EDGE('',*,*,#140,.T.);
#185=ORIENTED_EDGE('',*,*,#151,.F.);
#186=ORIENTED_EDGE('',*,*,#139,.T.);
#187=ORIENTED_EDGE('',*,*,#152,.F.);
#188=ORIENTED_EDGE('',*,*,#153,.T.);
#189=ORIENTED_EDGE('',*,*,#143,.T.);
#190=ORIENTED_EDGE('',*,*,#154,.F.);
#191=ORIENTED_EDGE('',*,*,#155,.F.);
#192=ORIENTED_EDGE('',*,*,#133,.T.);
#193=ORIENTED_EDGE('',*,*,#156,.T.);
#194=ORIENTED_EDGE('',*,*,#155,.T.);
#195=ORIENTED_EDGE('',*,*,#157,.F.);
#196=ORIENTED_EDGE('',*,*,#145,.F.);
#197=ORIENTED_EDGE('',*,*,#138,.T.);
#198=ORIENTED_EDGE('',*,*,#157,.T.);
#199=ORIENTED_EDGE('',*,*,#154,.T.);
#200=ORIENTED_EDGE('',*,*,#142,.T.);
#201=ORIENTED_EDGE('',*,*,#146,.T.);
#202=ORIENTED_EDGE('',*,*,#150,.T.);
#203=ORIENTED_EDGE('',*,*,#151,.T.);
#204=ORIENTED_EDGE('',*,*,#152,.T.);
#205=ORIENTED_EDGE('',*,*,#132,.T.);
#206=ORIENTED_EDGE('',*,*,#144,.F.);
#207=ORIENTED_EDGE('',*,*,#153,.F.);
#208=ORIENTED_EDGE('',*,*,#156,.F.);
#209=ORIENTED_EDGE('',*,*,#149,.T.);
#210=PLANE('',#233);
#211=PLANE('',#234);
#212=PLANE('',#237);
#213=PLANE('',#238);
#214=PLANE('',#250);
#215=PLANE('',#251);
#216=PLANE('',#252);
#217=PLANE('',#253);
#218=ADVANCED_FACE('',(#39),#210,.F.);
#219=ADVANCED_FACE('',(#40,#20,#21),#211,.F.);
#220=ADVANCED_FACE('',(#41),#212,.T.);
#221=ADVANCED_FACE('',(#42),#213,.T.);
#222=ADVANCED_FACE('',(#43,#22),#19,.F.);
#223=ADVANCED_FACE('',(#44,#23),#15,.F.);
#224=ADVANCED_FACE('',(#45,#24),#16,.F.);
#225=ADVANCED_FACE('',(#46,#25),#17,.F.);
#226=ADVANCED_FACE('',(#47,#26),#18,.F.);
#227=ADVANCED_FACE('',(#48),#214,.T.);
#228=ADVANCED_FACE('',(#49),#215,.T.);
#229=ADVANCED_FACE('',(#50,#27,#28,#29),#216,.T.);
#230=ADVANCED_FACE('',(#51,#30),#217,.T.);
#231=CLOSED_SHELL('',(#218,#219,#220,#221,#222,#223,#224,#225,#226,#227,
#228,#229,#230));
#232=AXIS2_PLACEMENT_3D('placement',#316,#254,#255);
#233=AXIS2_PLACEMENT_3D('',#317,#256,#257);
#234=AXIS2_PLACEMENT_3D('',#326,#262,#263);
#235=AXIS2_PLACEMENT_3D('',#333,#267,#268);
#236=AXIS2_PLACEMENT_3D('',#335,#269,#270);
#237=AXIS2_PLACEMENT_3D('',#336,#271,#272);
#238=AXIS2_PLACEMENT_3D('',#344,#277,#278);
#239=AXIS2_PLACEMENT_3D('',#348,#281,#282);
#240=AXIS2_PLACEMENT_3D('',#350,#283,#284);
#241=AXIS2_PLACEMENT_3D('',#352,#285,#286);
#242=AXIS2_PLACEMENT_3D('',#353,#287,#288);
#243=AXIS2_PLACEMENT_3D('',#355,#289,#290);
#244=AXIS2_PLACEMENT_3D('',#356,#291,#292);
#245=AXIS2_PLACEMENT_3D('',#358,#293,#294);
#246=AXIS2_PLACEMENT_3D('',#359,#295,#296);
#247=AXIS2_PLACEMENT_3D('',#361,#297,#298);
#248=AXIS2_PLACEMENT_3D('',#362,#299,#300);
#249=AXIS2_PLACEMENT_3D('',#364,#301,#302);
#250=AXIS2_PLACEMENT_3D('',#365,#303,#304);
#251=AXIS2_PLACEMENT_3D('',#371,#308,#309);
#252=AXIS2_PLACEMENT_3D('',#374,#312,#313);
#253=AXIS2_PLACEMENT_3D('',#375,#314,#315);
#254=DIRECTION('axis',(0.,0.,1.));
#255=DIRECTION('refdir',(1.,0.,0.));
#256=DIRECTION('center_axis',(1.,0.,1.77635683940025E-16));
#257=DIRECTION('ref_axis',(1.77635683940025E-16,0.,-1.));
#258=DIRECTION('',(1.77635683940025E-16,0.,-1.));
#259=DIRECTION('',(0.,-1.,0.));
#260=DIRECTION('',(1.77635683940025E-16,0.,-1.));
#261=DIRECTION('',(0.,1.,0.));
#262=DIRECTION('center_axis',(0.,1.,0.));
#263=DIRECTION('ref_axis',(0.,0.,1.));
#264=DIRECTION('',(3.5527136788005E-16,0.,1.));
#265=DIRECTION('',(-1.,0.,1.61486985400023E-16));
#266=DIRECTION('',(1.,0.,-1.61486985400023E-16));
#267=DIRECTION('center_axis',(0.,-1.,0.));
#268=DIRECTION('ref_axis',(1.,0.,0.));
#269=DIRECTION('center_axis',(0.,-1.,0.));
#270=DIRECTION('ref_axis',(1.,0.,0.));
#271=DIRECTION('center_axis',(-1.61486985400023E-16,0.,-1.));
#272=DIRECTION('ref_axis',(-1.,0.,0.));
#273=DIRECTION('',(0.,1.,0.));
#274=DIRECTION('',(-1.,0.,1.61486985400023E-16));
#275=DIRECTION('',(0.,1.,0.));
#276=DIRECTION('',(-1.,0.,1.61486985400023E-16));
#277=DIRECTION('center_axis',(-1.,0.,3.5527136788005E-16));
#278=DIRECTION('ref_axis',(3.5527136788005E-16,0.,1.));
#279=DIRECTION('',(0.,1.,0.));
#280=DIRECTION('',(3.5527136788005E-16,0.,1.));
#281=DIRECTION('center_axis',(0.,-1.,0.));
#282=DIRECTION('ref_axis',(1.,0.,0.));
#283=DIRECTION('center_axis',(0.,-1.,0.));
#284=DIRECTION('ref_axis',(1.,0.,0.));
#285=DIRECTION('center_axis',(0.,-1.,0.));
#286=DIRECTION('ref_axis',(1.,0.,0.));
#287=DIRECTION('center_axis',(0.,-1.,0.));
#288=DIRECTION('ref_axis',(1.,0.,0.));
#289=DIRECTION('center_axis',(0.,1.,0.));
#290=DIRECTION('ref_axis',(1.,0.,0.));
#291=DIRECTION('center_axis',(0.,-1.,0.));
#292=DIRECTION('ref_axis',(1.,0.,0.));
#293=DIRECTION('center_axis',(0.,-1.,0.));
#294=DIRECTION('ref_axis',(1.,0.,0.));
#295=DIRECTION('center_axis',(0.,1.,0.));
#296=DIRECTION('ref_axis',(1.,0.,0.));
#297=DIRECTION('center_axis',(0.,-1.,0.));
#298=DIRECTION('ref_axis',(1.,0.,0.));
#299=DIRECTION('center_axis',(0.,1.,0.));
#300=DIRECTION('ref_axis',(1.,0.,0.));
#301=DIRECTION('center_axis',(0.,-1.,0.));
#302=DIRECTION('ref_axis',(1.,0.,0.));
#303=DIRECTION('center_axis',(1.,0.,-3.5527136788005E-16));
#304=DIRECTION('ref_axis',(-3.5527136788005E-16,0.,-1.));
#305=DIRECTION('',(-3.5527136788005E-16,0.,-1.));
#306=DIRECTION('',(-3.5527136788005E-16,0.,-1.));
#307=DIRECTION('',(0.,1.,0.));
#308=DIRECTION('center_axis',(1.61486985400023E-16,0.,1.));
#309=DIRECTION('ref_axis',(1.,0.,0.));
#310=DIRECTION('',(1.,0.,-1.61486985400023E-16));
#311=DIRECTION('',(1.,0.,-1.61486985400023E-16));
#312=DIRECTION('center_axis',(0.,1.,0.));
#313=DIRECTION('ref_axis',(0.,0.,1.));
#314=DIRECTION('center_axis',(0.,-1.,0.));
#315=DIRECTION('ref_axis',(0.,0.,-1.));
#316=CARTESIAN_POINT('',(0.,0.,0.));
#317=CARTESIAN_POINT('Origin',(2.7,0.,25.));
#318=CARTESIAN_POINT('',(2.7,0.,25.));
#319=CARTESIAN_POINT('',(2.7,0.,-25.));
#320=CARTESIAN_POINT('',(2.7,0.,12.5));
#321=CARTESIAN_POINT('',(2.7,6.35,25.));
#322=CARTESIAN_POINT('',(2.7,0.,25.));
#323=CARTESIAN_POINT('',(2.7,6.35,-25.));
#324=CARTESIAN_POINT('',(2.7,6.35,-25.));
#325=CARTESIAN_POINT('',(2.7,0.,-25.));
#326=CARTESIAN_POINT('Origin',(-12.4,6.35,0.));
#327=CARTESIAN_POINT('',(-27.5,6.35,-25.));
#328=CARTESIAN_POINT('',(-27.5,6.35,25.));
#329=CARTESIAN_POINT('',(-27.5,6.35,-12.5));
#330=CARTESIAN_POINT('',(7.54999999999999,6.35,-25.));
#331=CARTESIAN_POINT('',(-19.95,6.35,25.));
#332=CARTESIAN_POINT('',(-9.2,6.35,-15.));
#333=CARTESIAN_POINT('Origin',(-12.5,6.35,-15.));
#334=CARTESIAN_POINT('',(-9.2,6.35,15.));
#335=CARTESIAN_POINT('Origin',(-12.5,6.35,15.));
#336=CARTESIAN_POINT('Origin',(27.5,0.,-25.));
#337=CARTESIAN_POINT('',(-27.5,15.875,-25.));
#338=CARTESIAN_POINT('',(-27.5,0.,-25.));
#339=CARTESIAN_POINT('',(27.5,15.875,-25.));
#340=CARTESIAN_POINT('',(27.5,15.875,-25.));
#341=CARTESIAN_POINT('',(27.5,0.,-25.));
#342=CARTESIAN_POINT('',(27.5,0.,-25.));
#343=CARTESIAN_POINT('',(27.5,0.,-25.));
#344=CARTESIAN_POINT('Origin',(-27.5,0.,-25.));
#345=CARTESIAN_POINT('',(-27.5,15.875,25.));
#346=CARTESIAN_POINT('',(-27.5,0.,25.));
#347=CARTESIAN_POINT('',(-27.5,15.875,-25.));
#348=CARTESIAN_POINT('Origin',(17.5,9.90923461696007,0.));
#349=CARTESIAN_POINT('',(14.8205,10.2084632052358,-3.28144109831533E-16));
#350=CARTESIAN_POINT('Origin',(17.5,10.2084632052358,0.));
#351=CARTESIAN_POINT('',(23.855,8.,0.));
#352=CARTESIAN_POINT('Origin',(17.5,8.,0.));
#353=CARTESIAN_POINT('Origin',(17.5,4.,0.));
#354=CARTESIAN_POINT('',(23.855,0.,0.));
#355=CARTESIAN_POINT('Origin',(17.5,0.,0.));
#356=CARTESIAN_POINT('Origin',(17.5,76.0066814497252,0.));
#357=CARTESIAN_POINT('',(14.8205,15.875,-3.28144109831533E-16));
#358=CARTESIAN_POINT('Origin',(17.5,15.875,0.));
#359=CARTESIAN_POINT('Origin',(-12.5,-60.1316814497252,15.));
#360=CARTESIAN_POINT('',(-9.2,15.875,15.));
#361=CARTESIAN_POINT('Origin',(-12.5,15.875,15.));
#362=CARTESIAN_POINT('Origin',(-12.5,-60.1316814497252,-15.));
#363=CARTESIAN_POINT('',(-9.2,15.875,-15.));
#364=CARTESIAN_POINT('Origin',(-12.5,15.875,-15.));
#365=CARTESIAN_POINT('Origin',(27.5,0.,25.));
#366=CARTESIAN_POINT('',(27.5,0.,25.));
#367=CARTESIAN_POINT('',(27.5,0.,25.));
#368=CARTESIAN_POINT('',(27.5,15.875,25.));
#369=CARTESIAN_POINT('',(27.5,15.875,25.));
#370=CARTESIAN_POINT('',(27.5,0.,25.));
#371=CARTESIAN_POINT('Origin',(-27.5,0.,25.));
#372=CARTESIAN_POINT('',(-27.5,0.,25.));
#373=CARTESIAN_POINT('',(-27.5,15.875,25.));
#374=CARTESIAN_POINT('Origin',(0.,15.875,0.));
#375=CARTESIAN_POINT('Origin',(0.,0.,-2.11471052309554E-16));
#376=UNCERTAINTY_MEASURE_WITH_UNIT(LENGTH_MEASURE(0.01),#380,
'DISTANCE_ACCURACY_VALUE',
'Maximum model space distance between geometric entities at asserted c
onnectivities');
#377=UNCERTAINTY_MEASURE_WITH_UNIT(LENGTH_MEASURE(1.E-6),#380,
'DISTANCE_ACCURACY_VALUE',
'Maximum model space distance between geometric entities at asserted c
onnectivities');
#378=(
GEOMETRIC_REPRESENTATION_CONTEXT(3)
GLOBAL_UNCERTAINTY_ASSIGNED_CONTEXT((#376))
GLOBAL_UNIT_ASSIGNED_CONTEXT((#380,#383,#381))
REPRESENTATION_CONTEXT('','3D')
);
#379=(
GEOMETRIC_REPRESENTATION_CONTEXT(3)
GLOBAL_UNCERTAINTY_ASSIGNED_CONTEXT((#377))
GLOBAL_UNIT_ASSIGNED_CONTEXT((#380,#383,#381))
REPRESENTATION_CONTEXT('','3D')
);
#380=(
LENGTH_UNIT()
NAMED_UNIT(*)
SI_UNIT(.MILLI.,.METRE.)
);
#381=(
NAMED_UNIT(*)
SI_UNIT($,.STERADIAN.)
SOLID_ANGLE_UNIT()
);
#382=DIMENSIONAL_EXPONENTS(0.,0.,0.,0.,0.,0.,0.);
#383=(
CONVERSION_BASED_UNIT('degree',#385)
NAMED_UNIT(#382)
PLANE_ANGLE_UNIT()
);
#384=(
NAMED_UNIT(*)
PLANE_ANGLE_UNIT()
SI_UNIT($,.RADIAN.)
);
#385=PLANE_ANGLE_MEASURE_WITH_UNIT(PLANE_ANGLE_MEASURE(0.01745329252),#384);
#386=SHAPE_DEFINITION_REPRESENTATION(#387,#388);
#387=PRODUCT_DEFINITION_SHAPE('',$,#390);
#388=SHAPE_REPRESENTATION('',(#232),#378);
#389=PRODUCT_DEFINITION_CONTEXT('part definition',#394,'design');
#390=PRODUCT_DEFINITION('StageCenterBallPlate','StageCenterBallPlate',#391,
#389);
#391=PRODUCT_DEFINITION_FORMATION('',$,#396);
#392=PRODUCT_RELATED_PRODUCT_CATEGORY('StageCenterBallPlate',
'StageCenterBallPlate',(#396));
#393=APPLICATION_PROTOCOL_DEFINITION('international standard',
'automotive_design',2009,#394);
#394=APPLICATION_CONTEXT(
'Core Data for Automotive Mechanical Design Process');
#395=PRODUCT_CONTEXT('part definition',#394,'mechanical');
#396=PRODUCT('StageCenterBallPlate','StageCenterBallPlate',$,(#395));
#397=PRESENTATION_STYLE_ASSIGNMENT((#398));
#398=SURFACE_STYLE_USAGE(.BOTH.,#399);
#399=SURFACE_SIDE_STYLE($,(#400));
#400=SURFACE_STYLE_FILL_AREA(#401);
#401=FILL_AREA_STYLE($,(#402));
#402=FILL_AREA_STYLE_COLOUR($,#403);
#403=COLOUR_RGB('',0.956862745098039,0.956862745098039,0.956862745098039);
ENDSEC;
END-ISO-10303-21;
